Home | Tools & Resources | Lessons | Guitar Duels | Messageboard | Member Profiles | Search | Log In

Lick Thread

Post Reply

User ImageMike Lindyn
4:23 am Monday
July 24, 2006
Reply || Reply With Quote || Report
Let see some of your favorite licks.

Heres one I wrote tonight that I like:
Code:

------------------------------7--10-/15-12--
-----------------5-8-------8------------------
------4-7-----5---------7--------------------
----5-------7---------------------------------
--7-------------------------------------------
----------------------------------------------
User ImageT.A.Z
2:31 pm Monday
July 24, 2006
Reply || Reply With Quote || Report
Cool idea Mike, i'll throw one in here...

Right this is more of an exercise to me but i have used a few times in some solos for my last band. It's based around what i believe is an Bdim7 Arpeggio? Maybe someone could correct me on this?? All it is is skipping between different inversions of the arp when played fast, ala Malmsteen, it sounds kick ass and it looks impressive as hell!!

Code:
E-----1-4P1---------7-10P7--------4-7p4----------10-p13p10----------7-10p7----
B---3-------3-----9--------9----6-------6-----12-----------12-----9--------9--
G-4-----------/10------------/7-----------/13-----------------/10-------------
D-----------------------------------------------------------------------------
A-----------------------------------------------------------------------------
E-----------------------------------------------------------------------------

E--------12-16p12-----------10-13p10-----------16-19p16-----------12-16p12-----------19-22~-
B-----14----------14-----12----------12-----18----------18-----14----------14-----21--------
G-/16----------------/13----------------/19----------------/16----------------/22-----------
D-------------------------------------------------------------------------------------------
A-------------------------------------------------------------------------------------------
E-------------------------------------------------------------------------------------------
User ImageMike Lindyn
10:52 pm Monday
July 24, 2006
Reply || Reply With Quote || Report
I love dim7 based fingerings.

Here is a lick I use that uses the same dim7th chords.

Code:


Em D# dim7
---------3-7-3-------------------5-8-5--------
-------5--------5--------------7--------7------
-----4------------4----------5------------5----
---5----------------5------7----------------7--
-7-----------------------6----------------------
-------------------------------------------------

Em D# dim7 A dim7
---------3-7-3-------------------8------------11-
-------5--------5-------------10-----------13----
-----4------------4----------8-----------11------
---5----------------5-----10----------13---------
-7-----------------------9----------12------------
---------------------------------------------------

Post Reply